  0
SECTION
  2
BLOCKS
  0
ENDSEC
  0
SECTION
  2
ENTITIES
  0
LINE
  8
0
 10
57.15
 20
-23.6722
 11
57.15
 21
23.6722
  0
LINE
  8
0
 10
57.15
 20
23.6722
 11
23.6722
 21
57.15
  0
LINE
  8
0
 10
23.6722
 20
57.15
 11
-23.6722
 21
57.15
  0
LINE
  8
0
 10
-23.6722
 20
57.15
 11
-57.15
 21
23.6722
  0
LINE
  8
0
 10
-57.15
 20
23.6722
 11
-57.15
 21
-23.6722
  0
LINE
  8
0
 10
-57.15
 20
-23.6722
 11
-23.6722
 21
-57.15
  0
LINE
  8
0
 10
-23.6722
 20
-57.15
 11
23.6722
 21
-57.15
  0
LINE
  8
0
 10
23.6722
 20
-57.15
 11
57.15
 21
-23.6722
  0
LINE
  8
0
 10
0.607715
 20
27.0398
 11
-0.206577
 21
26.9367
  0
LINE
  8
0
 10
-0.206577
 20
26.9367
 11
-0.970096
 21
27.239
  0
LINE
  8
0
 10
-0.970096
 20
27.239
 11
-1.49371
 21
27.8719
  0
LINE
  8
0
 10
-1.49371
 20
27.8719
 11
-1.64757
 21
28.6785
  0
LINE
  8
0
 10
-1.64757
 20
28.6785
 11
-1.39371
 21
29.4594
  0
LINE
  8
0
 10
-1.39371
 20
29.4594
 11
-0.7953
 21
30.0214
  0
LINE
  8
0
 10
-0.7953
 20
30.0214
 11
0
 21
30.2257
  0
LINE
  8
0
 10
0
 20
30.2257
 11
0.7953
 21
30.0214
  0
LINE
  8
0
 10
0.7953
 20
30.0214
 11
1.39371
 21
29.4594
  0
LINE
  8
0
 10
1.39371
 20
29.4594
 11
1.64757
 21
28.6785
  0
LINE
  8
0
 10
1.64757
 20
28.6785
 11
1.49371
 21
27.8719
  0
LINE
  8
0
 10
1.49371
 20
27.8719
 11
0.970096
 21
27.239
  0
LINE
  8
0
 10
0.970096
 20
27.239
 11
0.607715
 21
27.0398
  0
LINE
  8
0
 10
0.607715
 20
-30.1098
 11
-0.206577
 21
-30.2129
  0
LINE
  8
0
 10
-0.206577
 20
-30.2129
 11
-0.970096
 21
-29.9106
  0
LINE
  8
0
 10
-0.970096
 20
-29.9106
 11
-1.49371
 21
-29.2777
  0
LINE
  8
0
 10
-1.49371
 20
-29.2777
 11
-1.64757
 21
-28.4711
  0
LINE
  8
0
 10
-1.64757
 20
-28.4711
 11
-1.39371
 21
-27.6902
  0
LINE
  8
0
 10
-1.39371
 20
-27.6902
 11
-0.7953
 21
-27.1282
  0
LINE
  8
0
 10
-0.7953
 20
-27.1282
 11
0
 21
-26.9239
  0
LINE
  8
0
 10
0
 20
-26.9239
 11
0.7953
 21
-27.1282
  0
LINE
  8
0
 10
0.7953
 20
-27.1282
 11
1.39371
 21
-27.6902
  0
LINE
  8
0
 10
1.39371
 20
-27.6902
 11
1.64757
 21
-28.4711
  0
LINE
  8
0
 10
1.64757
 20
-28.4711
 11
1.49371
 21
-29.2777
  0
LINE
  8
0
 10
1.49371
 20
-29.2777
 11
0.970096
 21
-29.9106
  0
LINE
  8
0
 10
0.970096
 20
-29.9106
 11
0.607715
 21
-30.1098
  0
ENDSEC
  0
SECTION
  2
OBJECTS
  0
DICTIONARY
  0
ENDSEC
  0
EOF
