  0
SECTION
  2
BLOCKS
  0
ENDSEC
  0
SECTION
  2
ENTITIES
  0
LINE
  8
0
 10
52.85
 20
30.85
 11
-52.85
 21
30.85
  0
LINE
  8
0
 10
-52.85
 20
30.85
 11
-52.85
 21
-30.85
  0
LINE
  8
0
 10
-52.85
 20
-30.85
 11
52.85
 21
-30.85
  0
LINE
  8
0
 10
52.85
 20
-30.85
 11
52.85
 21
30.85
  0
LINE
  8
0
 10
-46.5
 20
-24.5
 11
-46.5
 21
24.5
  0
LINE
  8
0
 10
-46.5
 20
24.5
 11
46.5
 21
24.5
  0
LINE
  8
0
 10
46.5
 20
24.5
 11
46.5
 21
-24.5
  0
LINE
  8
0
 10
46.5
 20
-24.5
 11
-46.5
 21
-24.5
  0
LINE
  8
0
 10
11.6667
 20
21.35
 11
-35
 21
21.35
  0
LINE
  8
0
 10
-35
 20
21.35
 11
-35
 21
15.0005
  0
LINE
  8
0
 10
-35
 20
15.0005
 11
11.6667
 21
15.0005
  0
LINE
  8
0
 10
11.6667
 20
15.0005
 11
11.6667
 21
21.35
  0
LINE
  8
0
 10
35
 20
15
 11
-35
 21
15
  0
LINE
  8
0
 10
-35
 20
15
 11
-35
 21
-15
  0
LINE
  8
0
 10
-35
 20
-15
 11
35
 21
-15
  0
LINE
  8
0
 10
35
 20
-15
 11
35
 21
15
  0
ENDSEC
  0
SECTION
  2
OBJECTS
  0
DICTIONARY
  0
ENDSEC
  0
EOF
